Винницкий форум  

Вернуться   Винницкий форум > Городской форум > Музыкальный раздел

Результаты опроса: КАКОЙ ПАНК-РОК ВЫ БОЛЬШЕ ЛЮБИТЕ?
Калифорнийский 213 37.30%
Русский 106 18.56%
Равнодушен к обоим(пусть себе поют) 112 19.61%
Обожаю и тот, и тот 55 9.63%
Запретить его вобще!!!(Жалкое подобие на музыку) 85 14.89%
Голосовавшие: 571. Вы ещё не голосовали в этом опросе

Ответ
Опции темы Опции просмотра
Непрочитано 09.02.2006, 21:51   #21
<su][xy>
Гигант мысли
 
Аватар для <su][xy>
 
Регистрация: 07.09.2005
Адрес: сел. міськ. типу Хардстеповé Драминбасівського району Вінницької області, вул. Т.Ічя, 666/13
Сообщений: 1,254
Отправить сообщение для <su][xy> с помощью ICQ Отправить сообщение для <su][xy> с помощью MSN
По умолчанию

Цитата:
Сообщение от RazoR
Підженеш в суботу ?
да. брату в Киев. я там как раз буду
__________________
60
HERTZ

when you see smoke, look out fi fire
when you see thief, look out fi liar

-=x_SVЄ[Т@Х]FОR_x=-


<su][xy> вне форума   Ответить с цитированием
Непрочитано 10.02.2006, 00:02   #22
Cypress Hill
Фанат
 
Аватар для Cypress Hill
 
Регистрация: 30.09.2005
Сообщений: 539
Отправить сообщение для Cypress Hill с помощью ICQ
По умолчанию

Юра Хой........
__________________

да...
Cypress Hill вне форума   Ответить с цитированием
Непрочитано 10.02.2006, 00:03   #23
Cypress Hill
Фанат
 
Аватар для Cypress Hill
 
Регистрация: 30.09.2005
Сообщений: 539
Отправить сообщение для Cypress Hill с помощью ICQ
По умолчанию

Юрец..........
Изображения
 
__________________

да...
Cypress Hill вне форума   Ответить с цитированием
Непрочитано 10.02.2006, 15:44   #24
Finch
Писатель
 
Регистрация: 10.02.2006
Сообщений: 204
Отправить сообщение для Finch с помощью ICQ
По умолчанию

В punk-rocke Блинки рулят!!!!
Finch вне форума   Ответить с цитированием
Непрочитано 10.02.2006, 15:50   #25
American Idiot
Ветеран
 
Аватар для American Idiot
 
Регистрация: 23.11.2005
Адрес: Не там, де хотілося б...
Сообщений: 1,955
Arrow

Цитата:
Сообщение от Finch
В punk-rocke Блинки рулят!!!!
100%
__________________
Слушай панк (с). Иди побрейся...
blink -
American Idiot вне форума   Ответить с цитированием
Непрочитано 10.02.2006, 15:51   #26
Cypress Hill
Фанат
 
Аватар для Cypress Hill
 
Регистрация: 30.09.2005
Сообщений: 539
Отправить сообщение для Cypress Hill с помощью ICQ
По умолчанию

Цитата:
Сообщение от American Idiot
100%

Сектор рулиттттттттттттттттттттттт
__________________

да...
Cypress Hill вне форума   Ответить с цитированием
Непрочитано 10.02.2006, 15:59   #27
American Idiot
Ветеран
 
Аватар для American Idiot
 
Регистрация: 23.11.2005
Адрес: Не там, де хотілося б...
Сообщений: 1,955
Arrow Табы Blink-182 Adam's Song

Riff1 (Intro)
e|-----------------------------------------------------------
B|-----------------------------------------------------------
G|-----------------------------------------------------------
D|----4--0----4--0----4--0-----4--0----0-4-----0--4------0-4---0-4--------
A|--2------2---------0------0-------------------------------------
D|-----------------------------------3------3----------0-----3--- 2X
[Intro]
Riff1 (guitar)
Riff1 (guitar+drum)

[Verse] (clean palm mute)
C F A F C
I never thought_ I'd die alone_ I laughed the lou_dest who'd have known_?
F A F C
I trace the cord_ back to the wall_ No wonder it was never plugged in at all_
F A F C
I took my time_, I hur_ried up_ The choice was mine_ I didn't think enough_
F A F Riff2a (guitar)
I'm too depressed_, to go on_ You'll be sor_ry_ when I'm gone_

Riff2a (guitar+drum+bass)

Riff2a Interlude
e|-----------------------------------------------------------
B|-----------------------------------------------------------
G|-----0-----0------2-----2----------------------------------
D|-------3-----3--0---3-0---3----2-----2------2-----2--------
A|---3-----3-------------------0---3-0---3------3-----3------
D|------------------------------------------3-----3---------- 2X

[Chorus1] (little dist.)
C D A F
I ne__ver con_quered, rarely came - six_teen_ just held_ such better days
C D A F C (dist.)
Days when I__ still felt alive__ We couldn't wait__ to get outside_
D A F C
The world_ was wide_, too late_ to try_ The tour was o_ver, we'd survived
D A F Riff1 Riff1
I couldn't wait_ till I_ got_ home_ To pass the time_ in my room alone_

Riff1

C F A F C
I ne_ver_ thought_ I'd die a_lone_ Another six_ months_ I'll be unknown_
F A F C
Give all_ my things_ to all my friends_ You'll never set foot_ in my room again
F A F A
You'll close it off_, board_ it up_ Remember the time_ that I spilled the cup_
F A F Riff2b (guitar)
Of apple_ juice_ in_ the hall_ Please_ tell mom_ this is not her fault

Riff2b guitar+drum+bass)

Riff2b Interlude

[Repeat Chorus1] (no Riff2 at the end)

[Bridge] (clean) Bassline:
D5 G5 A5 G5 D5 G5 A5 B5 G5
D5 G5 A5 G5 D5 G5 A5 B5 G5

D5 G5 D5 G5 D5 G5 A5 B5 G5

Riff3 Bridge beginning
e|-----------------------------------
B|-----------------------------------
G|-----0-----0-------------0-----0---
D|---4-----4------------4------4-----
A|-5-----5------------5------5-----5-
D|-----------------------------------

Riff4 Bridge end
e|--------------------------------
B|-----3-----3-----3-----3-----3--
G|---2-----2-----2-----2-----2----
D|-0-----0-----0-----0-----0------
A|--------------------------------
D|--------------------------------

[Chorus2] (heavy dist.)
D5 E5 B5 G5 D5
I ne__ver con_quered, rarely came - To_morrow_ holds_ such better days
D5 E5 B5 G5 D5
Days when I__ still feel alive__ When I can't wait__ to get outside_
E5 B5 G5 D5
The world_ was wide_, as time_ goes by_ The tour is o_ver, I_'ve survived
E5 B5 G5 D5
I can't wait_ till I_ got_ home_ To pass the time_ in my room alone_

Chorus

Com a 1є corda afinada em RE, as notas serгo tocadas assim

Guitar1
C D A F
e|-----------------------------------------------------------------|
B|-----------------------------------------------------------------|
G|-5-5-5-5-5-5-5-5-7-7-7-7-7-7-7-7---------------------------------|
D|-x-x-x-x-x-x-x-x-x-x-x-x-x-x-x-x-7-7-7-7-7-7-7-7-3-3-3-3-3-3-3-3-|
A|-3-3-3-3-3-3-3-3-5-5-5-5-5-5-5-5-x-x-x-x-x-x-x-x-x-x-x-x-x-x-x-x-|
D|---------------------------------7-7-7-7-7-7-7-7-3-3-3-3-3-3-3-3-|

Guitar2 Enters "outside the world was wide.."

C D A F
e|-----------------------------------------------------------------|
B|-----------------------------------------------------------------|
G|-5-5-5-5-5-5-5-5-7-7-7-7-7-7-7-7---------------------------------|
D|-5-5-5-5-5-5-5-5-7-7-7-7-7-7-7-7-7-7-7-7-7-7-7-7-3-3-3-3-3-3-3-3-|
A|-3-3-3-3-3-3-3-3-5-5-5-5-5-5-5-5-7-7-7-7-7-7-7-7-3-3-3-3-3-3-3-3-|
*E|---------------------------------5-5-5-5-5-5-5-5-1-1-1-1-1-1-1-1-|

Bridge

Piano part in the middle of bridge
e|-----------------------3-3-3-2----------------------
B|--3---5-3------3--5-3-----------3--3------3-5-3-----
G|----------------------------------------2--------0--
D|----------------------------------------------------
A|----------------------------------------------------
E|----------------------------------------------------

e|----------------2-----3---5--|
B|----3-5----3------3----------|
G|--2-----2-----------2--------|
D|-----------------------------|
A|-----------------------------|
E|-----------------------------|
__________________
Слушай панк (с). Иди побрейся...
blink -
American Idiot вне форума   Ответить с цитированием
Непрочитано 10.02.2006, 16:04   #28
Finch
Писатель
 
Регистрация: 10.02.2006
Сообщений: 204
Отправить сообщение для Finch с помощью ICQ
По умолчанию

Я уже взял гитару и играю!!!!!
Finch вне форума   Ответить с цитированием
Непрочитано 10.02.2006, 20:32   #29
Finch
Писатель
 
Регистрация: 10.02.2006
Сообщений: 204
Отправить сообщение для Finch с помощью ICQ
По умолчанию

!!!!
Изображения
 
Finch вне форума   Ответить с цитированием
Непрочитано 10.02.2006, 20:33   #30
RazoR
Banned
 
Аватар для RazoR
 
Регистрация: 26.03.2005
Сообщений: 1,420
По умолчанию

Цитата:
Сообщение от Finch
В punk-rocke Блинки рулят!!!!
Все рулят.
RazoR вне форума   Ответить с цитированием
Ответ

Опции темы
Опции просмотра

Ваши права в разделе
Вы не можете создавать новые темы
Вы не можете отвечать в темах
Вы не можете прикреплять вложения
Вы не можете редактировать свои сообщения

BB коды Вкл.
Смайлы Вкл.
[IMG] код Вкл.
HTML код Выкл.

Быстрый переход


Часовой пояс GMT +3, время: 23:53.


Copyright ©2000 - 2017